ISO-10303-21;
HEADER;
FILE_DESCRIPTION (( 'STEP AP203' ),
    '1' );
FILE_NAME ('BK7-NPBSC-25.4-420-700.STEP',
    '2020-12-22T02:11:16',
    ( '' ),
    ( '' ),
    'SwSTEP 2.0',
    'SolidWorks 2020',
    '' );
FILE_SCHEMA (( 'CONFIG_CONTROL_DESIGN' ));
ENDSEC;

DATA;
#1 = ORIENTED_EDGE ( 'NONE', *, *, #208, .F. ) ;
#2 = AXIS2_PLACEMENT_3D ( 'NONE', #86, #23, #238 ) ;
#3 = LINE ( 'NONE', #99, #272 ) ;
#4 = LINE ( 'NONE', #285, #202 ) ;
#5 = PLANE ( 'NONE',  #228 ) ;
#6 = ORIENTED_EDGE ( 'NONE', *, *, #10, .F. ) ;
#7 = EDGE_CURVE ( 'NONE', #87, #168, #309, .T. ) ;
#8 = ADVANCED_FACE ( 'NONE', ( #183 ), #259, .T. ) ;
#9 = LINE ( 'NONE', #16, #117 ) ;
#10 = EDGE_CURVE ( 'NONE', #244, #142, #206, .T. ) ;
#11 = ORIENTED_EDGE ( 'NONE', *, *, #275, .T. ) ;
#12 = PERSON_AND_ORGANIZATION_ROLE ( 'design_supplier' ) ;
#13 = DIRECTION ( 'NONE',  ( 0.7071067811865475727, 0.7071067811865475727, 0.000000000000000000 ) ) ;
#14 = EDGE_LOOP ( 'NONE', ( #234, #1, #178, #11 ) ) ;
#15 = APPROVAL_ROLE ( '' ) ;
#16 = CARTESIAN_POINT ( 'NONE',  ( 12.69999999999999929, 12.69999999999999929, -12.69999999999999929 ) ) ;
#17 = LOCAL_TIME ( 10, 11, 16.00000000000000000, #149 ) ;
#18 = ORIENTED_EDGE ( 'NONE', *, *, #208, .T. ) ;
#19 = PERSON_AND_ORGANIZATION ( #104, #257 ) ;
#20 = LINE ( 'NONE', #157, #21 ) ;
#21 = VECTOR ( 'NONE', #68, 1000.000000000000000 ) ;
#22 = ORIENTED_EDGE ( 'NONE', *, *, #105, .F. ) ;
#23 = DIRECTION ( 'NONE',  ( 1.000000000000000000, -2.220446049250312588E-16, 0.000000000000000000 ) ) ;
#24 = EDGE_LOOP ( 'NONE', ( #197, #237, #6, #18 ) ) ;
#25 = AXIS2_PLACEMENT_3D ( 'NONE', #152, #278, #280 ) ;
#26 = SECURITY_CLASSIFICATION_LEVEL ( 'unclassified' ) ;
#27 = DIRECTION ( 'NONE',  ( 0.000000000000000000, 0.000000000000000000, 1.000000000000000000 ) ) ;
#28 = EDGE_CURVE ( 'NONE', #142, #287, #279, .T. ) ;
#29 = CARTESIAN_POINT ( 'NONE',  ( 0.000000000000000000, 0.000000000000000000, 12.69999999999999929 ) ) ;
#30 = VECTOR ( 'NONE', #221, 999.9999999999998863 ) ;
#31 = CARTESIAN_POINT ( 'NONE',  ( -12.70000000000000284, 12.70000000000000284, 12.69999999999999929 ) ) ;
#32 = CARTESIAN_POINT ( 'NONE',  ( 0.000000000000000000, 0.000000000000000000, 12.69999999999999929 ) ) ;
#33 = SECURITY_CLASSIFICATION ( '', '', #26 ) ;
#34 = VERTEX_POINT ( 'NONE', #134 ) ;
#35 = ADVANCED_FACE ( 'NONE', ( #57 ), #204, .F. ) ;
#36 = CC_DESIGN_PERSON_AND_ORGANIZATION_ASSIGNMENT ( #138, #116, ( #33 ) ) ;
#37 = FACE_OUTER_BOUND ( 'NONE', #269, .T. ) ;
#38 = CARTESIAN_POINT ( 'NONE',  ( -12.69999999999999751, -12.69999999999999929, 12.69999999999999929 ) ) ;
#39 = CARTESIAN_POINT ( 'NONE',  ( 12.69999999999999574, 12.69999999999999574, 12.69999999999999929 ) ) ;
#40 = DIRECTION ( 'NONE',  ( 0.000000000000000000, -0.000000000000000000, 1.000000000000000000 ) ) ;
#41 = DIRECTION ( 'NONE',  ( 2.220446049250312588E-16, -1.000000000000000000, 0.000000000000000000 ) ) ;
#42 = VERTEX_POINT ( 'NONE', #229 ) ;
#43 = APPROVAL_DATE_TIME ( #245, #268 ) ;
#44 = CARTESIAN_POINT ( 'NONE',  ( 12.69999999999999574, 12.69999999999999574, 12.69999999999999929 ) ) ;
#45 = VERTEX_POINT ( 'NONE', #250 ) ;
#46 = CARTESIAN_POINT ( 'NONE',  ( 12.69999999999999929, 12.69999999999999929, -12.69999999999999929 ) ) ;
#47 = MANIFOLD_SOLID_BREP ( '¾µÏ', #312 ) ;
#48 = ORIENTED_EDGE ( 'NONE', *, *, #75, .T. ) ;
#49 = COORDINATED_UNIVERSAL_TIME_OFFSET ( 8, 0, .AHEAD. ) ;
#50 = DIRECTION ( 'NONE',  ( 1.000000000000000000, 0.000000000000000000, 0.000000000000000000 ) ) ;
#51 = VECTOR ( 'NONE', #203, 1000.000000000000000 ) ;
#52 = CALENDAR_DATE ( 2020, 22, 12 ) ;
#53 =( LENGTH_UNIT ( ) NAMED_UNIT ( * ) SI_UNIT ( .MILLI., .METRE. ) );
#54 = FACE_OUTER_BOUND ( 'NONE', #143, .T. ) ;
#55 = EDGE_CURVE ( 'NONE', #173, #87, #108, .T. ) ;
#56 = DIRECTION ( 'NONE',  ( -2.220446049250312588E-16, 1.000000000000000000, 0.000000000000000000 ) ) ;
#57 = FACE_OUTER_BOUND ( 'NONE', #14, .T. ) ;
#58 = DIRECTION ( 'NONE',  ( -2.220446049250312588E-16, 1.000000000000000000, 0.000000000000000000 ) ) ;
#59 = CC_DESIGN_DATE_AND_TIME_ASSIGNMENT ( #67, #315, ( #288 ) ) ;
#60 = CARTESIAN_POINT ( 'NONE',  ( -12.69999999999999751, -12.69999999999999929, -12.69999999999999929 ) ) ;
#61 = ORIENTED_EDGE ( 'NONE', *, *, #132, .F. ) ;
#62 = CC_DESIGN_PERSON_AND_ORGANIZATION_ASSIGNMENT ( #19, #215, ( #85 ) ) ;
#63 = CARTESIAN_POINT ( 'NONE',  ( -12.69999999999999751, -12.69999999999999929, 12.69999999999999929 ) ) ;
#64 = DIRECTION ( 'NONE',  ( 0.000000000000000000, 0.000000000000000000, 1.000000000000000000 ) ) ;
#65 = DIRECTION ( 'NONE',  ( 0.000000000000000000, 0.000000000000000000, 1.000000000000000000 ) ) ;
#66 = EDGE_LOOP ( 'NONE', ( #91, #73, #119, #214 ) ) ;
#67 = DATE_AND_TIME ( #52, #230 ) ;
#68 = DIRECTION ( 'NONE',  ( -0.000000000000000000, -0.000000000000000000, -1.000000000000000000 ) ) ;
#69 = ORIENTED_EDGE ( 'NONE', *, *, #224, .T. ) ;
#70 = PLANE ( 'NONE',  #2 ) ;
#71 = ORIENTED_EDGE ( 'NONE', *, *, #147, .F. ) ;
#72 = ADVANCED_FACE ( 'NONE', ( #311 ), #182, .F. ) ;
#73 = ORIENTED_EDGE ( 'NONE', *, *, #275, .F. ) ;
#74 = COORDINATED_UNIVERSAL_TIME_OFFSET ( 8, 0, .AHEAD. ) ;
#75 = EDGE_CURVE ( 'NONE', #179, #45, #4, .T. ) ;
#76 = PERSON_AND_ORGANIZATION ( #104, #257 ) ;
#77 = LOCAL_TIME ( 10, 11, 16.00000000000000000, #235 ) ;
#78 =( NAMED_UNIT ( * ) SI_UNIT ( $, .STERADIAN. ) SOLID_ANGLE_UNIT ( ) );
#79 = ADVANCED_FACE ( 'NONE', ( #251 ), #308, .F. ) ;
#80 = PRODUCT_DEFINITION_SHAPE ( 'NONE', 'NONE',  #288 ) ;
#81 = ORIENTED_EDGE ( 'NONE', *, *, #180, .F. ) ;
#82 = DIRECTION ( 'NONE',  ( 0.000000000000000000, 1.000000000000000000, 0.000000000000000000 ) ) ;
#83 = ADVANCED_FACE ( 'NONE', ( #262 ), #5, .F. ) ;
#84 = DIRECTION ( 'NONE',  ( 1.000000000000000000, -2.220446049250312588E-16, 0.000000000000000000 ) ) ;
#85 = PRODUCT_DEFINITION_FORMATION_WITH_SPECIFIED_SOURCE ( 'ANY', '', #103, .NOT_KNOWN. ) ;
#86 = CARTESIAN_POINT ( 'NONE',  ( -12.69999999999999574, -12.69999999999999396, 12.69999999999999929 ) ) ;
#87 = VERTEX_POINT ( 'NONE', #137 ) ;
#88 = DIRECTION ( 'NONE',  ( 1.000000000000000000, -2.220446049250312588E-16, 0.000000000000000000 ) ) ;
#89 = ORIENTED_EDGE ( 'NONE', *, *, #55, .T. ) ;
#90 = LINE ( 'NONE', #216, #303 ) ;
#91 = ORIENTED_EDGE ( 'NONE', *, *, #147, .T. ) ;
#92 = CARTESIAN_POINT ( 'NONE',  ( 12.69999999999999574, 12.69999999999999574, 12.69999999999999929 ) ) ;
#93 = EDGE_CURVE ( 'NONE', #287, #244, #3, .T. ) ;
#94 = APPLICATION_PROTOCOL_DEFINITION ( 'international standard', 'config_control_design', 1994, #120 ) ;
#95 = DATE_AND_TIME ( #127, #305 ) ;
#96 = CC_DESIGN_SECURITY_CLASSIFICATION ( #33, ( #85 ) ) ;
#97 = AXIS2_PLACEMENT_3D ( 'NONE', #92, #41, #65 ) ;
#98 = ORIENTED_EDGE ( 'NONE', *, *, #307, .T. ) ;
#99 = CARTESIAN_POINT ( 'NONE',  ( 12.69999999999999929, 12.69999999999999929, 12.69999999999999929 ) ) ;
#100 = CARTESIAN_POINT ( 'NONE',  ( 12.69999999999999929, 12.69999999999999929, 12.69999999999999929 ) ) ;
#101 = VECTOR ( 'NONE', #133, 1000.000000000000000 ) ;
#102 = DIRECTION ( 'NONE',  ( 0.000000000000000000, 0.000000000000000000, 1.000000000000000000 ) ) ;
#103 = PRODUCT ( 'BK7-NPBSC-25.4-420-700', 'BK7-NPBSC-25.4-420-700', '', ( #274 ) ) ;
#104 = PERSON ( 'UNSPECIFIED', 'UNSPECIFIED', 'UNSPECIFIED', ('UNSPECIFIED'), ('UNSPECIFIED'), ('UNSPECIFIED') ) ;
#105 = EDGE_CURVE ( 'NONE', #168, #45, #151, .T. ) ;
#106 = LINE ( 'NONE', #243, #135 ) ;
#107 = PRODUCT_RELATED_PRODUCT_CATEGORY ( 'detail', '', ( #103 ) ) ;
#108 = LINE ( 'NONE', #187, #156 ) ;
#109 = CARTESIAN_POINT ( 'NONE',  ( 12.69999999999999929, 12.69999999999999929, 12.69999999999999929 ) ) ;
#110 = ADVANCED_BREP_SHAPE_REPRESENTATION ( 'BK7-NPBSC-25.4-420-700', ( #158, #47, #159 ), #213 ) ;
#111 = VERTEX_POINT ( 'NONE', #227 ) ;
#112 = DATE_AND_TIME ( #124, #77 ) ;
#113 = UNCERTAINTY_MEASURE_WITH_UNIT (LENGTH_MEASURE( 1.000000000000000082E-05 ), #53, 'distance_accuracy_value', 'NONE');
#114 = CARTESIAN_POINT ( 'NONE',  ( 12.69999999999999574, 12.69999999999999574, 12.69999999999999929 ) ) ;
#115 = CC_DESIGN_PERSON_AND_ORGANIZATION_ASSIGNMENT ( #76, #296, ( #288 ) ) ;
#116 = PERSON_AND_ORGANIZATION_ROLE ( 'classification_officer' ) ;
#117 = VECTOR ( 'NONE', #136, 1000.000000000000114 ) ;
#118 = CARTESIAN_POINT ( 'NONE',  ( 12.69999999999999929, -12.69999999999999929, 12.69999999999999929 ) ) ;
#119 = ORIENTED_EDGE ( 'NONE', *, *, #28, .F. ) ;
#120 = APPLICATION_CONTEXT ( 'configuration controlled 3d designs of mechanical parts and assemblies' ) ;
#121 = FACE_OUTER_BOUND ( 'NONE', #239, .T. ) ;
#122 = AXIS2_PLACEMENT_3D ( 'NONE', #100, #232, #252 ) ;
#123 = ORIENTED_EDGE ( 'NONE', *, *, #55, .F. ) ;
#124 = CALENDAR_DATE ( 2020, 22, 12 ) ;
#125 = APPROVAL_PERSON_ORGANIZATION ( #126, #297, #150 ) ;
#126 = PERSON_AND_ORGANIZATION ( #104, #257 ) ;
#127 = CALENDAR_DATE ( 2020, 22, 12 ) ;
#128 = DIRECTION ( 'NONE',  ( 0.000000000000000000, 0.000000000000000000, -1.000000000000000000 ) ) ;
#129 = CARTESIAN_POINT ( 'NONE',  ( -12.69999999999999751, -12.69999999999999929, 12.69999999999999929 ) ) ;
#130 = EDGE_CURVE ( 'NONE', #173, #42, #293, .T. ) ;
#131 = CARTESIAN_POINT ( 'NONE',  ( 12.69999999999999929, 12.69999999999999929, 12.69999999999999929 ) ) ;
#132 = EDGE_CURVE ( 'NONE', #193, #34, #9, .T. ) ;
#133 = DIRECTION ( 'NONE',  ( -0.000000000000000000, -0.000000000000000000, -1.000000000000000000 ) ) ;
#134 = CARTESIAN_POINT ( 'NONE',  ( -12.69999999999999751, -12.69999999999999929, -12.69999999999999929 ) ) ;
#135 = VECTOR ( 'NONE', #256, 1000.000000000000000 ) ;
#136 = DIRECTION ( 'NONE',  ( -0.7071067811865474617, -0.7071067811865474617, 0.000000000000000000 ) ) ;
#137 = CARTESIAN_POINT ( 'NONE',  ( -12.69999999999999574, -12.69999999999999396, 12.69999999999999929 ) ) ;
#138 = PERSON_AND_ORGANIZATION ( #104, #257 ) ;
#139 = CARTESIAN_POINT ( 'NONE',  ( 12.69999999999999929, 12.69999999999999929, 12.69999999999999929 ) ) ;
#140 = EDGE_LOOP ( 'NONE', ( #190, #184, #217, #265 ) ) ;
#141 = DIRECTION ( 'NONE',  ( -0.7071067811865475727, 0.7071067811865475727, 0.000000000000000000 ) ) ;
#142 = VERTEX_POINT ( 'NONE', #118 ) ;
#143 = EDGE_LOOP ( 'NONE', ( #319, #298, #196 ) ) ;
#144 = APPROVAL_DATE_TIME ( #270, #310 ) ;
#145 = VECTOR ( 'NONE', #223, 1000.000000000000000 ) ;
#146 = PLANE ( 'NONE',  #282 ) ;
#147 = EDGE_CURVE ( 'NONE', #111, #193, #106, .T. ) ;
#148 = AXIS2_PLACEMENT_3D ( 'NONE', #154, #64, #162 ) ;
#149 = COORDINATED_UNIVERSAL_TIME_OFFSET ( 8, 0, .AHEAD. ) ;
#150 = APPROVAL_ROLE ( '' ) ;
#151 = LINE ( 'NONE', #31, #205 ) ;
#152 = CARTESIAN_POINT ( 'NONE',  ( 0.000000000000000000, 0.000000000000000000, -12.69999999999999929 ) ) ;
#153 = VECTOR ( 'NONE', #306, 1000.000000000000000 ) ;
#154 = CARTESIAN_POINT ( 'NONE',  ( 0.000000000000000000, 0.000000000000000000, -12.69999999999999929 ) ) ;
#155 = VECTOR ( 'NONE', #88, 1000.000000000000000 ) ;
#156 = VECTOR ( 'NONE', #211, 999.9999999999998863 ) ;
#157 = CARTESIAN_POINT ( 'NONE',  ( 12.69999999999999929, 12.69999999999999929, 12.69999999999999929 ) ) ;
#158 = MANIFOLD_SOLID_BREP ( 'Í¹Ì¨-À', #283 ) ;
#159 = AXIS2_PLACEMENT_3D ( 'NONE', #198, #27, #273 ) ;
#160 = CARTESIAN_POINT ( 'NONE',  ( -12.69999999999999574, -12.69999999999999396, 12.69999999999999929 ) ) ;
#161 = CARTESIAN_POINT ( 'NONE',  ( 12.69999999999999574, 12.69999999999999574, -12.69999999999999929 ) ) ;
#162 = DIRECTION ( 'NONE',  ( -2.220446049250312588E-16, 1.000000000000000000, 0.000000000000000000 ) ) ;
#163 = APPROVAL_STATUS ( 'not_yet_approved' ) ;
#164 = CC_DESIGN_PERSON_AND_ORGANIZATION_ASSIGNMENT ( #246, #226, ( #103 ) ) ;
#165 = CARTESIAN_POINT ( 'NONE',  ( -12.69999999999999574, -12.69999999999999396, 12.69999999999999929 ) ) ;
#166 = PERSON_AND_ORGANIZATION ( #104, #257 ) ;
#167 = LINE ( 'NONE', #212, #199 ) ;
#168 = VERTEX_POINT ( 'NONE', #231 ) ;
#169 = PERSON_AND_ORGANIZATION ( #104, #257 ) ;
#170 = DIRECTION ( 'NONE',  ( 0.000000000000000000, 0.000000000000000000, 1.000000000000000000 ) ) ;
#171 = ORIENTED_EDGE ( 'NONE', *, *, #180, .T. ) ;
#172 = PLANE ( 'NONE',  #209 ) ;
#173 = VERTEX_POINT ( 'NONE', #44 ) ;
#174 = CALENDAR_DATE ( 2020, 22, 12 ) ;
#175 = VECTOR ( 'NONE', #56, 1000.000000000000000 ) ;
#176 = CC_DESIGN_APPROVAL ( #268, ( #85 ) ) ;
#177 = APPLICATION_PROTOCOL_DEFINITION ( 'international standard', 'config_control_design', 1994, #181 ) ;
#178 = ORIENTED_EDGE ( 'NONE', *, *, #93, .F. ) ;
#179 = VERTEX_POINT ( 'NONE', #318 ) ;
#180 = EDGE_CURVE ( 'NONE', #45, #42, #90, .T. ) ;
#181 = APPLICATION_CONTEXT ( 'configuration controlled 3d designs of mechanical parts and assemblies' ) ;
#182 = PLANE ( 'NONE',  #25 ) ;
#183 = FACE_OUTER_BOUND ( 'NONE', #316, .T. ) ;
#184 = ORIENTED_EDGE ( 'NONE', *, *, #307, .F. ) ;
#185 = AXIS2_PLACEMENT_3D ( 'NONE', #32, #102, #201 ) ;
#186 = DIRECTION ( 'NONE',  ( -1.000000000000000000, 0.000000000000000000, 0.000000000000000000 ) ) ;
#187 = CARTESIAN_POINT ( 'NONE',  ( 12.69999999999999574, 12.69999999999999574, 12.69999999999999929 ) ) ;
#188 = DIRECTION ( 'NONE',  ( 1.000000000000000000, 0.000000000000000000, 0.000000000000000000 ) ) ;
#189 = ORIENTED_EDGE ( 'NONE', *, *, #130, .F. ) ;
#190 = ORIENTED_EDGE ( 'NONE', *, *, #75, .F. ) ;
#191 = COORDINATED_UNIVERSAL_TIME_OFFSET ( 8, 0, .AHEAD. ) ;
#192 = LINE ( 'NONE', #264, #101 ) ;
#193 = VERTEX_POINT ( 'NONE', #46 ) ;
#194 = CC_DESIGN_APPROVAL ( #310, ( #33 ) ) ;
#195 = LINE ( 'NONE', #165, #145 ) ;
#196 = ORIENTED_EDGE ( 'NONE', *, *, #28, .T. ) ;
#197 = ORIENTED_EDGE ( 'NONE', *, *, #294, .T. ) ;
#198 = CARTESIAN_POINT ( 'NONE',  ( 0.000000000000000000, 0.000000000000000000, 0.000000000000000000 ) ) ;
#199 = VECTOR ( 'NONE', #267, 1000.000000000000000 ) ;
#200 = EDGE_LOOP ( 'NONE', ( #61, #71, #300 ) ) ;
#201 = DIRECTION ( 'NONE',  ( -2.220446049250312588E-16, 1.000000000000000000, 0.000000000000000000 ) ) ;
#202 = VECTOR ( 'NONE', #58, 1000.000000000000000 ) ;
#203 = DIRECTION ( 'NONE',  ( -0.000000000000000000, 1.000000000000000000, -0.000000000000000000 ) ) ;
#204 = PLANE ( 'NONE',  #122 ) ;
#205 = VECTOR ( 'NONE', #128, 1000.000000000000000 ) ;
#206 = LINE ( 'NONE', #38, #153 ) ;
#207 = CC_DESIGN_PERSON_AND_ORGANIZATION_ASSIGNMENT ( #263, #12, ( #85 ) ) ;
#208 = EDGE_CURVE ( 'NONE', #244, #34, #192, .T. ) ;
#209 = AXIS2_PLACEMENT_3D ( 'NONE', #29, #299, #50 ) ;
#210 = FACE_OUTER_BOUND ( 'NONE', #66, .T. ) ;
#211 = DIRECTION ( 'NONE',  ( -0.7071067811865475727, -0.7071067811865475727, 0.000000000000000000 ) ) ;
#212 = CARTESIAN_POINT ( 'NONE',  ( 12.69999999999999929, -12.69999999999999929, 12.69999999999999929 ) ) ;
#213 =( GEOMETRIC_REPRESENTATION_CONTEXT ( 3 ) GLOBAL_UNCERTAINTY_ASSIGNED_CONTEXT ( ( #113 ) ) GLOBAL_UNIT_ASSIGNED_CONTEXT ( ( #53, #248, #78 ) ) REPRESENTATION_CONTEXT ( 'NONE', 'WORKASPACE' ) );
#214 = ORIENTED_EDGE ( 'NONE', *, *, #290, .T. ) ;
#215 = PERSON_AND_ORGANIZATION_ROLE ( 'creator' ) ;
#216 = CARTESIAN_POINT ( 'NONE',  ( 12.69999999999999574, 12.69999999999999574, -12.69999999999999929 ) ) ;
#217 = ORIENTED_EDGE ( 'NONE', *, *, #7, .T. ) ;
#218 = DATE_TIME_ROLE ( 'classification_date' ) ;
#219 = DIRECTION ( 'NONE',  ( 0.000000000000000000, 0.000000000000000000, -1.000000000000000000 ) ) ;
#220 = ORIENTED_EDGE ( 'NONE', *, *, #7, .F. ) ;
#221 = DIRECTION ( 'NONE',  ( -0.7071067811865475727, -0.7071067811865475727, 0.000000000000000000 ) ) ;
#222 = APPROVAL_STATUS ( 'not_yet_approved' ) ;
#223 = DIRECTION ( 'NONE',  ( 0.000000000000000000, 0.000000000000000000, -1.000000000000000000 ) ) ;
#224 = EDGE_CURVE ( 'NONE', #168, #173, #233, .T. ) ;
#225 = ADVANCED_FACE ( 'NONE', ( #261 ), #70, .F. ) ;
#226 = PERSON_AND_ORGANIZATION_ROLE ( 'design_owner' ) ;
#227 = CARTESIAN_POINT ( 'NONE',  ( 12.69999999999999929, -12.69999999999999929, -12.69999999999999929 ) ) ;
#228 = AXIS2_PLACEMENT_3D ( 'NONE', #129, #82, #40 ) ;
#229 = CARTESIAN_POINT ( 'NONE',  ( 12.69999999999999574, 12.69999999999999574, -12.69999999999999929 ) ) ;
#230 = LOCAL_TIME ( 10, 11, 16.00000000000000000, #49 ) ;
#231 = CARTESIAN_POINT ( 'NONE',  ( -12.70000000000000284, 12.70000000000000284, 12.69999999999999929 ) ) ;
#232 = DIRECTION ( 'NONE',  ( 0.7071067811865475727, -0.7071067811865475727, 0.000000000000000000 ) ) ;
#233 = LINE ( 'NONE', #39, #155 ) ;
#234 = ORIENTED_EDGE ( 'NONE', *, *, #132, .T. ) ;
#235 = COORDINATED_UNIVERSAL_TIME_OFFSET ( 8, 0, .AHEAD. ) ;
#236 = LINE ( 'NONE', #60, #241 ) ;
#237 = ORIENTED_EDGE ( 'NONE', *, *, #290, .F. ) ;
#238 = DIRECTION ( 'NONE',  ( 0.000000000000000000, 0.000000000000000000, 1.000000000000000000 ) ) ;
#239 = EDGE_LOOP ( 'NONE', ( #81, #22, #69, #271 ) ) ;
#240 = EDGE_LOOP ( 'NONE', ( #295, #48, #171 ) ) ;
#241 = VECTOR ( 'NONE', #188, 1000.000000000000000 ) ;
#242 = SHAPE_DEFINITION_REPRESENTATION ( #80, #110 ) ;
#243 = CARTESIAN_POINT ( 'NONE',  ( 12.69999999999999929, 12.69999999999999929, -12.69999999999999929 ) ) ;
#244 = VERTEX_POINT ( 'NONE', #63 ) ;
#245 = DATE_AND_TIME ( #174, #17 ) ;
#246 = PERSON_AND_ORGANIZATION ( #104, #257 ) ;
#247 = CC_DESIGN_APPROVAL ( #297, ( #288 ) ) ;
#248 =( NAMED_UNIT ( * ) PLANE_ANGLE_UNIT ( ) SI_UNIT ( $, .RADIAN. ) );
#249 = VECTOR ( 'NONE', #219, 1000.000000000000000 ) ;
#250 = CARTESIAN_POINT ( 'NONE',  ( -12.70000000000000284, 12.70000000000000284, -12.69999999999999929 ) ) ;
#251 = FACE_OUTER_BOUND ( 'NONE', #240, .T. ) ;
#252 = DIRECTION ( 'NONE',  ( 0.7071067811865474617, 0.7071067811865474617, 0.000000000000000000 ) ) ;
#253 = APPROVAL_PERSON_ORGANIZATION ( #169, #310, #15 ) ;
#254 = ADVANCED_FACE ( 'NONE', ( #210 ), #284, .F. ) ;
#255 = EDGE_CURVE ( 'NONE', #42, #179, #289, .T. ) ;
#256 = DIRECTION ( 'NONE',  ( -0.000000000000000000, 1.000000000000000000, -0.000000000000000000 ) ) ;
#257 = ORGANIZATION ( 'UNSPECIFIED', 'UNSPECIFIED', '' ) ;
#258 = LOCAL_TIME ( 10, 11, 16.00000000000000000, #191 ) ;
#259 = PLANE ( 'NONE',  #185 ) ;
#260 = DESIGN_CONTEXT ( 'detailed design', #120, 'design' ) ;
#261 = FACE_OUTER_BOUND ( 'NONE', #140, .T. ) ;
#262 = FACE_OUTER_BOUND ( 'NONE', #24, .T. ) ;
#263 = PERSON_AND_ORGANIZATION ( #104, #257 ) ;
#264 = CARTESIAN_POINT ( 'NONE',  ( -12.69999999999999751, -12.69999999999999929, 12.69999999999999929 ) ) ;
#265 = ORIENTED_EDGE ( 'NONE', *, *, #105, .T. ) ;
#266 = APPROVAL_ROLE ( '' ) ;
#267 = DIRECTION ( 'NONE',  ( -0.000000000000000000, -0.000000000000000000, -1.000000000000000000 ) ) ;
#268 = APPROVAL ( #163, 'UNSPECIFIED' ) ;
#269 = EDGE_LOOP ( 'NONE', ( #277, #189, #89, #98 ) ) ;
#270 = DATE_AND_TIME ( #292, #258 ) ;
#271 = ORIENTED_EDGE ( 'NONE', *, *, #130, .T. ) ;
#272 = VECTOR ( 'NONE', #304, 1000.000000000000114 ) ;
#273 = DIRECTION ( 'NONE',  ( 1.000000000000000000, 0.000000000000000000, 0.000000000000000000 ) ) ;
#274 = MECHANICAL_CONTEXT ( 'NONE', #181, 'mechanical' ) ;
#275 = EDGE_CURVE ( 'NONE', #287, #193, #20, .T. ) ;
#276 = CC_DESIGN_DATE_AND_TIME_ASSIGNMENT ( #112, #218, ( #33 ) ) ;
#277 = ORIENTED_EDGE ( 'NONE', *, *, #255, .F. ) ;
#278 = DIRECTION ( 'NONE',  ( -0.000000000000000000, 0.000000000000000000, 1.000000000000000000 ) ) ;
#279 = LINE ( 'NONE', #131, #51 ) ;
#280 = DIRECTION ( 'NONE',  ( 1.000000000000000000, 0.000000000000000000, 0.000000000000000000 ) ) ;
#281 = ADVANCED_FACE ( 'NONE', ( #37 ), #146, .F. ) ;
#282 = AXIS2_PLACEMENT_3D ( 'NONE', #313, #141, #13 ) ;
#283 = CLOSED_SHELL ( 'NONE', ( #35, #83, #254, #321, #72 ) ) ;
#284 = PLANE ( 'NONE',  #286 ) ;
#285 = CARTESIAN_POINT ( 'NONE',  ( -12.69999999999999574, -12.69999999999999396, -12.69999999999999929 ) ) ;
#286 = AXIS2_PLACEMENT_3D ( 'NONE', #139, #186, #170 ) ;
#287 = VERTEX_POINT ( 'NONE', #109 ) ;
#288 = PRODUCT_DEFINITION ( 'UNKNOWN', '', #85, #260 ) ;
#289 = LINE ( 'NONE', #161, #30 ) ;
#290 = EDGE_CURVE ( 'NONE', #142, #111, #167, .T. ) ;
#291 = ORIENTED_EDGE ( 'NONE', *, *, #224, .F. ) ;
#292 = CALENDAR_DATE ( 2020, 22, 12 ) ;
#293 = LINE ( 'NONE', #114, #249 ) ;
#294 = EDGE_CURVE ( 'NONE', #34, #111, #236, .T. ) ;
#295 = ORIENTED_EDGE ( 'NONE', *, *, #255, .T. ) ;
#296 = PERSON_AND_ORGANIZATION_ROLE ( 'creator' ) ;
#297 = APPROVAL ( #222, 'UNSPECIFIED' ) ;
#298 = ORIENTED_EDGE ( 'NONE', *, *, #10, .T. ) ;
#299 = DIRECTION ( 'NONE',  ( -0.000000000000000000, 0.000000000000000000, 1.000000000000000000 ) ) ;
#300 = ORIENTED_EDGE ( 'NONE', *, *, #294, .F. ) ;
#301 = APPROVAL_DATE_TIME ( #95, #297 ) ;
#302 = ADVANCED_FACE ( 'NONE', ( #121 ), #320, .F. ) ;
#303 = VECTOR ( 'NONE', #84, 1000.000000000000000 ) ;
#304 = DIRECTION ( 'NONE',  ( -0.7071067811865474617, -0.7071067811865474617, 0.000000000000000000 ) ) ;
#305 = LOCAL_TIME ( 10, 11, 16.00000000000000000, #74 ) ;
#306 = DIRECTION ( 'NONE',  ( 1.000000000000000000, 0.000000000000000000, 0.000000000000000000 ) ) ;
#307 = EDGE_CURVE ( 'NONE', #87, #179, #195, .T. ) ;
#308 = PLANE ( 'NONE',  #148 ) ;
#309 = LINE ( 'NONE', #160, #175 ) ;
#310 = APPROVAL ( #317, 'UNSPECIFIED' ) ;
#311 = FACE_OUTER_BOUND ( 'NONE', #200, .T. ) ;
#312 = CLOSED_SHELL ( 'NONE', ( #281, #225, #302, #8, #79 ) ) ;
#313 = CARTESIAN_POINT ( 'NONE',  ( 12.69999999999999574, 12.69999999999999574, 12.69999999999999929 ) ) ;
#314 = APPROVAL_PERSON_ORGANIZATION ( #166, #268, #266 ) ;
#315 = DATE_TIME_ROLE ( 'creation_date' ) ;
#316 = EDGE_LOOP ( 'NONE', ( #123, #291, #220 ) ) ;
#317 = APPROVAL_STATUS ( 'not_yet_approved' ) ;
#318 = CARTESIAN_POINT ( 'NONE',  ( -12.69999999999999574, -12.69999999999999396, -12.69999999999999929 ) ) ;
#319 = ORIENTED_EDGE ( 'NONE', *, *, #93, .T. ) ;
#320 = PLANE ( 'NONE',  #97 ) ;
#321 = ADVANCED_FACE ( 'NONE', ( #54 ), #172, .T. ) ;
ENDSEC;
END-ISO-10303-21;
